0
SECTION
2
HEADER
9
$INSUNITS
70
4
9
$ACADVER
1
AC1014
9
$HANDSEED
5
FFFF
0
ENDSEC
0
SECTION
2
TABLES
0
TABLE
2
VPORT
5
8
100
AcDbSymbolTable
0
ENDTAB
0
TABLE
2
LTYPE
5
5
100
AcDbSymbolTable
0
LTYPE
5
14
100
AcDbSymbolTableRecord
100
AcDbLinetypeTableRecord
2
BYBLOCK
70
0
0
LTYPE
5
15
100
AcDbSymbolTableRecord
100
AcDbLinetypeTableRecord
2
BYLAYER
70
0
0
ENDTAB
0
TABLE
2
LAYER
5
2
100
AcDbSymbolTable
70
2
0
LAYER
5
50
100
AcDbSymbolTableRecord
100
AcDbLayerTableRecord
2
0
70
0
6
CONTINUOUS
0
ENDTAB
0
TABLE
2
STYLE
5
3
100
AcDbSymbolTable
70
1
0
STYLE
5
11
100
AcDbSymbolTableRecord
100
AcDbTextStyleTableRecord
2
STANDARD
70
0
0
ENDTAB
0
TABLE
2
VIEW
5
6
100
AcDbSymbolTable
70
0
0
ENDTAB
0
TABLE
2
UCS
5
7
100
AcDbSymbolTable
70
0
0
ENDTAB
0
TABLE
2
APPID
5
9
100
AcDbSymbolTable
70
2
0
APPID
5
12
100
AcDbSymbolTableRecord
100
AcDbRegAppTableRecord
2
ACAD
70
0
0
ENDTAB
0
TABLE
2
DIMSTYLE
5
A
100
AcDbSymbolTable
70
1
0
ENDTAB
0
TABLE
2
BLOCK_RECORD
5
1
100
AcDbSymbolTable
70
1
0
BLOCK_RECORD
5
1F
100
AcDbSymbolTableRecord
100
AcDbBlockTableRecord
2
*MODEL_SPACE
0
BLOCK_RECORD
5
1B
100
AcDbSymbolTableRecord
100
AcDbBlockTableRecord
2
*PAPER_SPACE
0
ENDTAB
0
ENDSEC
0
SECTION
2
BLOCKS
0
BLOCK
5
20
100
AcDbEntity
100
AcDbBlockBegin
2
*MODEL_SPACE
0
ENDBLK
5
21
100
AcDbEntity
100
AcDbBlockEnd
0
BLOCK
5
1C
100
AcDbEntity
100
AcDbBlockBegin
2
*PAPER_SPACE
0
ENDBLK
5
1D
100
AcDbEntity
100
AcDbBlockEnd
0
ENDSEC
0
SECTION
2
ENTITIES
0
LWPOLYLINE
5
100
100
AcDbEntity
8
0
100
AcDbPolyline
90
4
70
1
43
0.0
10
-115.99945796822544
20
-127.99999992665207
42
-1.0001335715273907
10
-116.00000778134356
20
-124.00000000011681
10
-108.00000000001639
20
-124.00000000009197
42
-1.023420286983278
10
-108.09255961819557
20
-127.99785703128479
0
LINE
5
101
100
AcDbEntity
8
0
100
AcDbLine
10
-108.00000000001994
20
-103.00000000009298
30
0
11
-116.00000778134344
21
-103.00000000006818
31
0
0
ARC
5
102
100
AcDbEntity
8
0
100
AcDbCircle
10
-116.00000000001572
20
-101.00000000008335
30
0
40
2.0000000000000009
210
0
220
-0
230
1
100
AcDbArc
50
89.984471931706224
51
269.99977708136896
0
LINE
5
103
100
AcDbEntity
8
0
100
AcDbLine
10
-115.99945796818595
20
-99.000000073532973
30
0
11
-108.09255962010916
21
-99.00214296898973
31
0
0
ARC
5
104
100
AcDbEntity
8
0
100
AcDbCircle
10
-108.00000000001937
20
-101.00000000009302
30
0
40
1.9999999999999751
210
0
220
0
230
1
100
AcDbArc
50
-90.000000000016684
51
92.652585261216984
0
CIRCLE
5
105
100
AcDbEntity
8
0
100
AcDbCircle
10
110.59999999998735
20
-216.60000000007355
30
0
40
2.5
210
0
220
-0
230
1
0
CIRCLE
5
106
100
AcDbEntity
8
0
100
AcDbCircle
10
95.599999999991496
20
216.60000000006272
30
0
40
2.5
210
0
220
-0
230
1
0
LINE
5
107
100
AcDbEntity
8
0
100
AcDbLine
10
-108.00000000001643
20
124.00000000009203
30
0
11
-116.00000778134356
21
124.00000000007894
31
0
0
ARC
5
108
100
AcDbEntity
8
0
100
AcDbCircle
10
-116.00000000001575
20
126.00000000010166
30
0
40
1.9999999999999902
210
0
220
-0
230
1
100
AcDbArc
50
89.984471932809896
51
269.99977708137874
0
LINE
5
109
100
AcDbEntity
8
0
100
AcDbLine
10
-115.9994579682245
20
127.99999992665204
30
0
11
-108.09255961817641
21
127.99785703128478
31
0
0
ARC
5
110
100
AcDbEntity
8
0
100
AcDbCircle
10
-108.00000000001945
20
126.00000000009196
30
0
40
1.9999999999999929
210
0
220
0
230
1
100
AcDbArc
50
-89.999999999786255
51
92.652585205786025
0
CIRCLE
5
111
100
AcDbEntity
8
0
100
AcDbCircle
10
110.59999999999148
20
216.60000000007363
30
0
40
2.5
210
0
220
-0
230
1
0
CIRCLE
5
112
100
AcDbEntity
8
0
100
AcDbCircle
10
95.599999999991567
20
-216.60000000006266
30
0
40
2.5
210
0
220
-0
230
1
0
LWPOLYLINE
5
113
100
AcDbEntity
8
0
100
AcDbPolyline
90
4
70
1
43
0.0
10
-108.00000000001999
20
103.000000000093
42
-1.0234202874844878
10
-108.092559620109
20
99.002142968989716
10
-115.99945796818724
20
99.000000073532988
42
-1.0001335715471351
10
-116.00000778134343
20
103.00000000006821
0
LWPOLYLINE
5
114
100
AcDbEntity
8
0
100
AcDbPolyline
90
4
70
1
43
0.0
10
-121.00000000001441
20
227.00000000009248
10
120.99999999998559
20
227.00000000009248
10
120.99999999991593
20
-226.99999999990757
10
-121.00000000001418
20
-226.99999999990757
0
ENDSEC
0
SECTION
2
OBJECTS
0
DICTIONARY
5
C
100
AcDbDictionary
3
ACAD_GROUP
350
D
3
ACAD_MLINESTYLE
350
17
0
DICTIONARY
5
D
100
AcDbDictionary
0
DICTIONARY
5
1A
330
C
100
AcDbDictionary
0
DICTIONARY
5
17
100
AcDbDictionary
0
ENDSEC
0
EOF
