0
SECTION
2
HEADER
9
$INSUNITS
70
4
9
$ACADVER
1
AC1014
9
$HANDSEED
5
FFFF
0
ENDSEC
0
SECTION
2
TABLES
0
TABLE
2
VPORT
5
8
100
AcDbSymbolTable
0
ENDTAB
0
TABLE
2
LTYPE
5
5
100
AcDbSymbolTable
0
LTYPE
5
14
100
AcDbSymbolTableRecord
100
AcDbLinetypeTableRecord
2
BYBLOCK
70
0
0
LTYPE
5
15
100
AcDbSymbolTableRecord
100
AcDbLinetypeTableRecord
2
BYLAYER
70
0
0
ENDTAB
0
TABLE
2
LAYER
5
2
100
AcDbSymbolTable
70
2
0
LAYER
5
50
100
AcDbSymbolTableRecord
100
AcDbLayerTableRecord
2
0
70
0
6
CONTINUOUS
0
ENDTAB
0
TABLE
2
STYLE
5
3
100
AcDbSymbolTable
70
1
0
STYLE
5
11
100
AcDbSymbolTableRecord
100
AcDbTextStyleTableRecord
2
STANDARD
70
0
0
ENDTAB
0
TABLE
2
VIEW
5
6
100
AcDbSymbolTable
70
0
0
ENDTAB
0
TABLE
2
UCS
5
7
100
AcDbSymbolTable
70
0
0
ENDTAB
0
TABLE
2
APPID
5
9
100
AcDbSymbolTable
70
2
0
APPID
5
12
100
AcDbSymbolTableRecord
100
AcDbRegAppTableRecord
2
ACAD
70
0
0
ENDTAB
0
TABLE
2
DIMSTYLE
5
A
100
AcDbSymbolTable
70
1
0
ENDTAB
0
TABLE
2
BLOCK_RECORD
5
1
100
AcDbSymbolTable
70
1
0
BLOCK_RECORD
5
1F
100
AcDbSymbolTableRecord
100
AcDbBlockTableRecord
2
*MODEL_SPACE
0
BLOCK_RECORD
5
1B
100
AcDbSymbolTableRecord
100
AcDbBlockTableRecord
2
*PAPER_SPACE
0
ENDTAB
0
ENDSEC
0
SECTION
2
BLOCKS
0
BLOCK
5
20
100
AcDbEntity
100
AcDbBlockBegin
2
*MODEL_SPACE
0
ENDBLK
5
21
100
AcDbEntity
100
AcDbBlockEnd
0
BLOCK
5
1C
100
AcDbEntity
100
AcDbBlockBegin
2
*PAPER_SPACE
0
ENDBLK
5
1D
100
AcDbEntity
100
AcDbBlockEnd
0
ENDSEC
0
SECTION
2
ENTITIES
0
LWPOLYLINE
5
100
100
AcDbEntity
8
0
100
AcDbPolyline
90
4
70
1
43
0.0
10
-103.49959675775847
20
-127.9999999593918
42
-1.0001009396067833
10
-103.49999950417454
20
-124.00000000004292
10
-95.499999999990251
20
-124.00000000004295
42
-1.0201837531651945
10
-95.579904453628671
20
-127.9984031821583
0
LWPOLYLINE
5
101
100
AcDbEntity
8
0
100
AcDbPolyline
90
4
70
1
43
0.0
10
-103.49999999999021
20
-103.00000000004286
10
-95.499999999990237
20
-103.00000000004275
42
1.0201837531651987
10
-95.579904453628686
20
-99.001596817927421
10
-103.49959675775828
20
-99.000000040693948
42
1.0001008156400071
0
CIRCLE
5
102
100
AcDbEntity
8
0
100
AcDbCircle
10
98.09999999997504
20
-216.59999999999593
30
0
40
2.5
210
0
220
-0
230
1
0
CIRCLE
5
103
100
AcDbEntity
8
0
100
AcDbCircle
10
83.100000000011661
20
216.59999999998308
30
0
40
2.5
210
0
220
-0
230
1
0
LINE
5
104
100
AcDbEntity
8
0
100
AcDbLine
10
-95.499999999990237
20
124.00000000004297
30
0
11
-103.49999999999021
21
124.00000000004304
31
0
0
ARC
5
105
100
AcDbEntity
8
0
100
AcDbCircle
10
-103.49999999999025
20
126.00000000004287
30
0
40
1.9999999999999762
210
0
220
-0
230
1
100
AcDbArc
50
89.988447960915522
51
270.00000000000119
0
LINE
5
106
100
AcDbEntity
8
0
100
AcDbLine
10
-103.4995967577583
20
127.99999995939177
30
0
11
-95.579904453628671
21
127.99840318215831
31
0
0
ARC
5
107
100
AcDbEntity
8
0
100
AcDbCircle
10
-95.499999999990237
20
126.00000000004295
30
0
40
1.9999999999999751
210
0
220
0
230
1
100
AcDbArc
50
-90
51
92.289703384551103
0
CIRCLE
5
108
100
AcDbEntity
8
0
100
AcDbCircle
10
98.100000000011661
20
216.59999999999411
30
0
40
2.5
210
0
220
-0
230
1
0
CIRCLE
5
109
100
AcDbEntity
8
0
100
AcDbCircle
10
83.10000000004294
20
-216.59999999996626
30
0
40
2.5
210
0
220
-0
230
1
0
LWPOLYLINE
5
110
100
AcDbEntity
8
0
100
AcDbPolyline
90
4
70
1
43
0.0
10
-95.49999999999028
20
103.00000000004277
42
-1.0201837531651987
10
-95.579904453628671
20
99.001596817927421
10
-103.49959675775989
20
99.000000040693948
42
-1.0001008156400071
10
-103.49999999999021
20
103.00000000004286
0
LWPOLYLINE
5
111
100
AcDbEntity
8
0
100
AcDbPolyline
90
4
70
1
43
0.0
10
-108.49999999999022
20
227.00000000004286
10
108.50000000000973
20
227.00000000004297
10
108.49999999994922
20
-226.99999999995708
10
-108.49999999999012
20
-226.99999999995711
0
ENDSEC
0
SECTION
2
OBJECTS
0
DICTIONARY
5
C
100
AcDbDictionary
3
ACAD_GROUP
350
D
3
ACAD_MLINESTYLE
350
17
0
DICTIONARY
5
D
100
AcDbDictionary
0
DICTIONARY
5
1A
330
C
100
AcDbDictionary
0
DICTIONARY
5
17
100
AcDbDictionary
0
ENDSEC
0
EOF
