0
SECTION
2
HEADER
9
$INSUNITS
70
4
9
$ACADVER
1
AC1014
9
$HANDSEED
5
FFFF
0
ENDSEC
0
SECTION
2
TABLES
0
TABLE
2
VPORT
5
8
100
AcDbSymbolTable
0
ENDTAB
0
TABLE
2
LTYPE
5
5
100
AcDbSymbolTable
0
LTYPE
5
14
100
AcDbSymbolTableRecord
100
AcDbLinetypeTableRecord
2
BYBLOCK
70
0
0
LTYPE
5
15
100
AcDbSymbolTableRecord
100
AcDbLinetypeTableRecord
2
BYLAYER
70
0
0
ENDTAB
0
TABLE
2
LAYER
5
2
100
AcDbSymbolTable
70
2
0
LAYER
5
50
100
AcDbSymbolTableRecord
100
AcDbLayerTableRecord
2
0
70
0
6
CONTINUOUS
0
ENDTAB
0
TABLE
2
STYLE
5
3
100
AcDbSymbolTable
70
1
0
STYLE
5
11
100
AcDbSymbolTableRecord
100
AcDbTextStyleTableRecord
2
STANDARD
70
0
0
ENDTAB
0
TABLE
2
VIEW
5
6
100
AcDbSymbolTable
70
0
0
ENDTAB
0
TABLE
2
UCS
5
7
100
AcDbSymbolTable
70
0
0
ENDTAB
0
TABLE
2
APPID
5
9
100
AcDbSymbolTable
70
2
0
APPID
5
12
100
AcDbSymbolTableRecord
100
AcDbRegAppTableRecord
2
ACAD
70
0
0
ENDTAB
0
TABLE
2
DIMSTYLE
5
A
100
AcDbSymbolTable
70
1
0
ENDTAB
0
TABLE
2
BLOCK_RECORD
5
1
100
AcDbSymbolTable
70
1
0
BLOCK_RECORD
5
1F
100
AcDbSymbolTableRecord
100
AcDbBlockTableRecord
2
*MODEL_SPACE
0
BLOCK_RECORD
5
1B
100
AcDbSymbolTableRecord
100
AcDbBlockTableRecord
2
*PAPER_SPACE
0
ENDTAB
0
ENDSEC
0
SECTION
2
BLOCKS
0
BLOCK
5
20
100
AcDbEntity
100
AcDbBlockBegin
2
*MODEL_SPACE
0
ENDBLK
5
21
100
AcDbEntity
100
AcDbBlockEnd
0
BLOCK
5
1C
100
AcDbEntity
100
AcDbBlockBegin
2
*PAPER_SPACE
0
ENDBLK
5
1D
100
AcDbEntity
100
AcDbBlockEnd
0
ENDSEC
0
SECTION
2
ENTITIES
0
LWPOLYLINE
5
100
100
AcDbEntity
8
0
100
AcDbPolyline
90
4
70
1
43
0.0
10
-90.996724575389706
20
-127.99999731796004
42
-1.0008179260488663
10
-91.000005059458502
20
-124.00000000006975
10
-82.999999999976268
20
-124.00000000006347
42
-1.0580988415931136
10
-83.225295804901251
20
-127.9872699365047
0
LINE
5
101
100
AcDbEntity
8
0
100
AcDbLine
10
-82.999999999976254
20
-103.00000000006324
30
0
11
-91.000005059458516
21
-103.00000000006361
31
0
0
ARC
5
102
100
AcDbEntity
8
0
100
AcDbCircle
10
-90.999999999969177
20
-101.00000000006455
30
0
40
1.9999999999999778
210
0
220
-0
230
1
100
AcDbArc
50
89.906165955797249
51
270.00003195449892
0
LINE
5
103
100
AcDbEntity
8
0
100
AcDbLine
10
-90.996724575389749
20
-99.000002682167917
30
0
11
-83.225295804901236
21
-99.012730063635473
31
0
0
ARC
5
104
100
AcDbEntity
8
0
100
AcDbCircle
10
-82.999999999976268
20
-101.00000000007671
30
0
40
1.9999999999999842
210
0
220
0
230
1
100
AcDbArc
50
-90.000121348127976
51
96.467978176296739
0
CIRCLE
5
105
100
AcDbEntity
8
0
100
AcDbCircle
10
85.600000000018696
20
-216.60000000004743
30
0
40
2.5
210
0
220
-0
230
1
0
CIRCLE
5
106
100
AcDbEntity
8
0
100
AcDbCircle
10
70.600000000019563
20
216.60000000003663
30
0
40
2.5
210
0
220
-0
230
1
0
LINE
5
107
100
AcDbEntity
8
0
100
AcDbLine
10
-82.999999999976268
20
124.00000000001327
30
0
11
-91.000005059458459
21
124.00000000004603
31
0
0
ARC
5
108
100
AcDbEntity
8
0
100
AcDbCircle
10
-90.999999999969134
20
126.00000000006331
30
0
40
1.9999999999999956
210
0
220
-0
230
1
100
AcDbArc
50
89.906165955799281
51
269.99985505630758
0
LINE
5
109
100
AcDbEntity
8
0
100
AcDbLine
10
-90.996724575389777
20
127.99999731795995
30
0
11
-83.225295804901236
21
127.98726993650305
31
0
0
ARC
5
110
100
AcDbEntity
8
0
100
AcDbCircle
10
-82.999999999976183
20
126.00000000006352
30
0
40
2.0000000000000107
210
0
220
0
230
1
100
AcDbArc
50
-90.000000000002444
51
96.467978176304655
0
CIRCLE
5
111
100
AcDbEntity
8
0
100
AcDbCircle
10
85.600000000019605
20
216.60000000004766
30
0
40
2.5
210
0
220
-0
230
1
0
CIRCLE
5
112
100
AcDbEntity
8
0
100
AcDbCircle
10
70.600000000012656
20
-216.60000000003691
30
0
40
2.5
210
0
220
-0
230
1
0
LWPOLYLINE
5
113
100
AcDbEntity
8
0
100
AcDbPolyline
90
4
70
1
43
0.0
10
-82.999999999976254
20
103.00000000006327
42
-1.0580988415930661
10
-83.225295804901236
20
99.01273006362203
10
-90.996724575389891
20
99.000002682166723
42
-1.0008179260488324
10
-91.000005059458516
20
103.00000000005697
0
LWPOLYLINE
5
114
100
AcDbEntity
8
0
100
AcDbPolyline
90
4
70
1
43
0.0
10
-95.999999999969134
20
227.00000000006332
10
96.000000000030809
20
227.00000000006341
10
95.999999999915602
20
-226.99999999993679
10
-95.999999999968963
20
-226.99999999993685
0
ENDSEC
0
SECTION
2
OBJECTS
0
DICTIONARY
5
C
100
AcDbDictionary
3
ACAD_GROUP
350
D
3
ACAD_MLINESTYLE
350
17
0
DICTIONARY
5
D
100
AcDbDictionary
0
DICTIONARY
5
1A
330
C
100
AcDbDictionary
0
DICTIONARY
5
17
100
AcDbDictionary
0
ENDSEC
0
EOF
