ISO-10303-21;
HEADER;
/* Generated by software containing ST-Developer
 * from STEP Tools, Inc. (www.steptools.com) 
 */

FILE_DESCRIPTION(
/* description */ (''),
/* implementation_level */ '2;1');

FILE_NAME(
/* name */ 'C:/Users/james/Desktop/2020 Cable Cover.step',
/* time_stamp */ '2018-11-16T14:59:10-06:00',
/* author */ ('jamespigott11@gmail.com'),
/* organization */ (''),
/* preprocessor_version */ 'ST-DEVELOPER v17.2',
/* originating_system */ 'Autodesk Translation Framework v7.6.0.251',
/* authorisation */ '');

FILE_SCHEMA (('AUTOMOTIVE_DESIGN { 1 0 10303 214 3 1 1 }'));
ENDSEC;

DATA;
#10=MECHANICAL_DESIGN_GEOMETRIC_PRESENTATION_REPRESENTATION('',(#17),#461);
#11=SHAPE_REPRESENTATION_RELATIONSHIP('SRR','None',#471,#12);
#12=ADVANCED_BREP_SHAPE_REPRESENTATION('',(#18),#459);
#13=ITEM_DEFINED_TRANSFORMATION($,$,#293,#308);
#14=(
REPRESENTATION_RELATIONSHIP($,$,#472,#471)
REPRESENTATION_RELATIONSHIP_WITH_TRANSFORMATION(#13)
SHAPE_REPRESENTATION_RELATIONSHIP()
);
#15=CONTEXT_DEPENDENT_SHAPE_REPRESENTATION(#14,#470);
#16=NEXT_ASSEMBLY_USAGE_OCCURRENCE('2020 Cable Cover:1',
'2020 Cable Cover:1','2020 Cable Cover:1',#474,#475,
'2020 Cable Cover:1');
#17=STYLED_ITEM('',(#485),#18);
#18=MANIFOLD_SOLID_BREP('Body2',#279);
#19=FACE_OUTER_BOUND('',#33,.T.);
#20=FACE_OUTER_BOUND('',#34,.T.);
#21=FACE_OUTER_BOUND('',#35,.T.);
#22=FACE_OUTER_BOUND('',#36,.T.);
#23=FACE_OUTER_BOUND('',#37,.T.);
#24=FACE_OUTER_BOUND('',#38,.T.);
#25=FACE_OUTER_BOUND('',#39,.T.);
#26=FACE_OUTER_BOUND('',#40,.T.);
#27=FACE_OUTER_BOUND('',#41,.T.);
#28=FACE_OUTER_BOUND('',#42,.T.);
#29=FACE_OUTER_BOUND('',#43,.T.);
#30=FACE_OUTER_BOUND('',#44,.T.);
#31=FACE_OUTER_BOUND('',#45,.T.);
#32=FACE_OUTER_BOUND('',#46,.T.);
#33=EDGE_LOOP('',(#179,#180,#181,#182));
#34=EDGE_LOOP('',(#183,#184,#185,#186));
#35=EDGE_LOOP('',(#187,#188,#189,#190));
#36=EDGE_LOOP('',(#191,#192,#193,#194));
#37=EDGE_LOOP('',(#195,#196,#197,#198));
#38=EDGE_LOOP('',(#199,#200,#201,#202));
#39=EDGE_LOOP('',(#203,#204,#205,#206));
#40=EDGE_LOOP('',(#207,#208,#209,#210));
#41=EDGE_LOOP('',(#211,#212,#213,#214));
#42=EDGE_LOOP('',(#215,#216,#217,#218));
#43=EDGE_LOOP('',(#219,#220,#221,#222));
#44=EDGE_LOOP('',(#223,#224,#225,#226));
#45=EDGE_LOOP('',(#227,#228,#229,#230,#231,#232,#233,#234,#235,#236,#237,
#238));
#46=EDGE_LOOP('',(#239,#240,#241,#242,#243,#244,#245,#246,#247,#248,#249,
#250));
#47=LINE('',#384,#83);
#48=LINE('',#386,#84);
#49=LINE('',#388,#85);
#50=LINE('',#389,#86);
#51=LINE('',#392,#87);
#52=LINE('',#394,#88);
#53=LINE('',#395,#89);
#54=LINE('',#398,#90);
#55=LINE('',#400,#91);
#56=LINE('',#401,#92);
#57=LINE('',#405,#93);
#58=LINE('',#407,#94);
#59=LINE('',#409,#95);
#60=LINE('',#410,#96);
#61=LINE('',#414,#97);
#62=LINE('',#416,#98);
#63=LINE('',#418,#99);
#64=LINE('',#419,#100);
#65=LINE('',#422,#101);
#66=LINE('',#424,#102);
#67=LINE('',#425,#103);
#68=LINE('',#427,#104);
#69=LINE('',#428,#105);
#70=LINE('',#431,#106);
#71=LINE('',#433,#107);
#72=LINE('',#434,#108);
#73=LINE('',#437,#109);
#74=LINE('',#439,#110);
#75=LINE('',#440,#111);
#76=LINE('',#442,#112);
#77=LINE('',#443,#113);
#78=LINE('',#446,#114);
#79=LINE('',#448,#115);
#80=LINE('',#449,#116);
#81=LINE('',#451,#117);
#82=LINE('',#452,#118);
#83=VECTOR('',#315,10.);
#84=VECTOR('',#316,10.);
#85=VECTOR('',#317,10.);
#86=VECTOR('',#318,10.);
#87=VECTOR('',#321,10.);
#88=VECTOR('',#322,10.);
#89=VECTOR('',#323,10.);
#90=VECTOR('',#326,10.);
#91=VECTOR('',#327,10.);
#92=VECTOR('',#328,10.);
#93=VECTOR('',#331,10.);
#94=VECTOR('',#332,10.);
#95=VECTOR('',#333,10.);
#96=VECTOR('',#334,10.);
#97=VECTOR('',#337,10.);
#98=VECTOR('',#338,10.);
#99=VECTOR('',#339,10.);
#100=VECTOR('',#340,10.);
#101=VECTOR('',#343,10.);
#102=VECTOR('',#344,10.);
#103=VECTOR('',#345,10.);
#104=VECTOR('',#348,10.);
#105=VECTOR('',#349,10.);
#106=VECTOR('',#352,10.);
#107=VECTOR('',#353,10.);
#108=VECTOR('',#354,10.);
#109=VECTOR('',#357,10.);
#110=VECTOR('',#358,10.);
#111=VECTOR('',#359,10.);
#112=VECTOR('',#362,10.);
#113=VECTOR('',#363,10.);
#114=VECTOR('',#366,10.);
#115=VECTOR('',#367,10.);
#116=VECTOR('',#368,10.);
#117=VECTOR('',#371,10.);
#118=VECTOR('',#372,10.);
#119=VERTEX_POINT('',#382);
#120=VERTEX_POINT('',#383);
#121=VERTEX_POINT('',#385);
#122=VERTEX_POINT('',#387);
#123=VERTEX_POINT('',#391);
#124=VERTEX_POINT('',#393);
#125=VERTEX_POINT('',#397);
#126=VERTEX_POINT('',#399);
#127=VERTEX_POINT('',#403);
#128=VERTEX_POINT('',#404);
#129=VERTEX_POINT('',#406);
#130=VERTEX_POINT('',#408);
#131=VERTEX_POINT('',#412);
#132=VERTEX_POINT('',#413);
#133=VERTEX_POINT('',#415);
#134=VERTEX_POINT('',#417);
#135=VERTEX_POINT('',#421);
#136=VERTEX_POINT('',#423);
#137=VERTEX_POINT('',#430);
#138=VERTEX_POINT('',#432);
#139=VERTEX_POINT('',#436);
#140=VERTEX_POINT('',#438);
#141=VERTEX_POINT('',#445);
#142=VERTEX_POINT('',#447);
#143=EDGE_CURVE('',#119,#120,#47,.T.);
#144=EDGE_CURVE('',#119,#121,#48,.T.);
#145=EDGE_CURVE('',#122,#121,#49,.T.);
#146=EDGE_CURVE('',#120,#122,#50,.T.);
#147=EDGE_CURVE('',#123,#119,#51,.T.);
#148=EDGE_CURVE('',#124,#123,#52,.T.);
#149=EDGE_CURVE('',#121,#124,#53,.T.);
#150=EDGE_CURVE('',#123,#125,#54,.T.);
#151=EDGE_CURVE('',#125,#126,#55,.T.);
#152=EDGE_CURVE('',#124,#126,#56,.T.);
#153=EDGE_CURVE('',#127,#128,#57,.T.);
#154=EDGE_CURVE('',#129,#128,#58,.T.);
#155=EDGE_CURVE('',#130,#129,#59,.T.);
#156=EDGE_CURVE('',#127,#130,#60,.T.);
#157=EDGE_CURVE('',#131,#132,#61,.T.);
#158=EDGE_CURVE('',#131,#133,#62,.T.);
#159=EDGE_CURVE('',#134,#133,#63,.T.);
#160=EDGE_CURVE('',#132,#134,#64,.T.);
#161=EDGE_CURVE('',#132,#135,#65,.T.);
#162=EDGE_CURVE('',#136,#134,#66,.T.);
#163=EDGE_CURVE('',#135,#136,#67,.T.);
#164=EDGE_CURVE('',#130,#125,#68,.T.);
#165=EDGE_CURVE('',#126,#129,#69,.T.);
#166=EDGE_CURVE('',#137,#120,#70,.T.);
#167=EDGE_CURVE('',#138,#122,#71,.T.);
#168=EDGE_CURVE('',#137,#138,#72,.T.);
#169=EDGE_CURVE('',#139,#137,#73,.T.);
#170=EDGE_CURVE('',#140,#138,#74,.T.);
#171=EDGE_CURVE('',#139,#140,#75,.T.);
#172=EDGE_CURVE('',#131,#139,#76,.T.);
#173=EDGE_CURVE('',#133,#140,#77,.T.);
#174=EDGE_CURVE('',#127,#141,#78,.T.);
#175=EDGE_CURVE('',#141,#142,#79,.T.);
#176=EDGE_CURVE('',#128,#142,#80,.T.);
#177=EDGE_CURVE('',#141,#135,#81,.T.);
#178=EDGE_CURVE('',#142,#136,#82,.T.);
#179=ORIENTED_EDGE('',*,*,#143,.F.);
#180=ORIENTED_EDGE('',*,*,#144,.T.);
#181=ORIENTED_EDGE('',*,*,#145,.F.);
#182=ORIENTED_EDGE('',*,*,#146,.F.);
#183=ORIENTED_EDGE('',*,*,#147,.F.);
#184=ORIENTED_EDGE('',*,*,#148,.F.);
#185=ORIENTED_EDGE('',*,*,#149,.F.);
#186=ORIENTED_EDGE('',*,*,#144,.F.);
#187=ORIENTED_EDGE('',*,*,#148,.T.);
#188=ORIENTED_EDGE('',*,*,#150,.T.);
#189=ORIENTED_EDGE('',*,*,#151,.T.);
#190=ORIENTED_EDGE('',*,*,#152,.F.);
#191=ORIENTED_EDGE('',*,*,#153,.T.);
#192=ORIENTED_EDGE('',*,*,#154,.F.);
#193=ORIENTED_EDGE('',*,*,#155,.F.);
#194=ORIENTED_EDGE('',*,*,#156,.F.);
#195=ORIENTED_EDGE('',*,*,#157,.F.);
#196=ORIENTED_EDGE('',*,*,#158,.T.);
#197=ORIENTED_EDGE('',*,*,#159,.F.);
#198=ORIENTED_EDGE('',*,*,#160,.F.);
#199=ORIENTED_EDGE('',*,*,#161,.F.);
#200=ORIENTED_EDGE('',*,*,#160,.T.);
#201=ORIENTED_EDGE('',*,*,#162,.F.);
#202=ORIENTED_EDGE('',*,*,#163,.F.);
#203=ORIENTED_EDGE('',*,*,#164,.F.);
#204=ORIENTED_EDGE('',*,*,#155,.T.);
#205=ORIENTED_EDGE('',*,*,#165,.F.);
#206=ORIENTED_EDGE('',*,*,#151,.F.);
#207=ORIENTED_EDGE('',*,*,#166,.T.);
#208=ORIENTED_EDGE('',*,*,#146,.T.);
#209=ORIENTED_EDGE('',*,*,#167,.F.);
#210=ORIENTED_EDGE('',*,*,#168,.F.);
#211=ORIENTED_EDGE('',*,*,#169,.T.);
#212=ORIENTED_EDGE('',*,*,#168,.T.);
#213=ORIENTED_EDGE('',*,*,#170,.F.);
#214=ORIENTED_EDGE('',*,*,#171,.F.);
#215=ORIENTED_EDGE('',*,*,#172,.T.);
#216=ORIENTED_EDGE('',*,*,#171,.T.);
#217=ORIENTED_EDGE('',*,*,#173,.F.);
#218=ORIENTED_EDGE('',*,*,#158,.F.);
#219=ORIENTED_EDGE('',*,*,#174,.T.);
#220=ORIENTED_EDGE('',*,*,#175,.T.);
#221=ORIENTED_EDGE('',*,*,#176,.F.);
#222=ORIENTED_EDGE('',*,*,#153,.F.);
#223=ORIENTED_EDGE('',*,*,#177,.T.);
#224=ORIENTED_EDGE('',*,*,#163,.T.);
#225=ORIENTED_EDGE('',*,*,#178,.F.);
#226=ORIENTED_EDGE('',*,*,#175,.F.);
#227=ORIENTED_EDGE('',*,*,#178,.T.);
#228=ORIENTED_EDGE('',*,*,#162,.T.);
#229=ORIENTED_EDGE('',*,*,#159,.T.);
#230=ORIENTED_EDGE('',*,*,#173,.T.);
#231=ORIENTED_EDGE('',*,*,#170,.T.);
#232=ORIENTED_EDGE('',*,*,#167,.T.);
#233=ORIENTED_EDGE('',*,*,#145,.T.);
#234=ORIENTED_EDGE('',*,*,#149,.T.);
#235=ORIENTED_EDGE('',*,*,#152,.T.);
#236=ORIENTED_EDGE('',*,*,#165,.T.);
#237=ORIENTED_EDGE('',*,*,#154,.T.);
#238=ORIENTED_EDGE('',*,*,#176,.T.);
#239=ORIENTED_EDGE('',*,*,#177,.F.);
#240=ORIENTED_EDGE('',*,*,#174,.F.);
#241=ORIENTED_EDGE('',*,*,#156,.T.);
#242=ORIENTED_EDGE('',*,*,#164,.T.);
#243=ORIENTED_EDGE('',*,*,#150,.F.);
#244=ORIENTED_EDGE('',*,*,#147,.T.);
#245=ORIENTED_EDGE('',*,*,#143,.T.);
#246=ORIENTED_EDGE('',*,*,#166,.F.);
#247=ORIENTED_EDGE('',*,*,#169,.F.);
#248=ORIENTED_EDGE('',*,*,#172,.F.);
#249=ORIENTED_EDGE('',*,*,#157,.T.);
#250=ORIENTED_EDGE('',*,*,#161,.T.);
#251=PLANE('',#294);
#252=PLANE('',#295);
#253=PLANE('',#296);
#254=PLANE('',#297);
#255=PLANE('',#298);
#256=PLANE('',#299);
#257=PLANE('',#300);
#258=PLANE('',#301);
#259=PLANE('',#302);
#260=PLANE('',#303);
#261=PLANE('',#304);
#262=PLANE('',#305);
#263=PLANE('',#306);
#264=PLANE('',#307);
#265=ADVANCED_FACE('',(#19),#251,.T.);
#266=ADVANCED_FACE('',(#20),#252,.T.);
#267=ADVANCED_FACE('',(#21),#253,.T.);
#268=ADVANCED_FACE('',(#22),#254,.T.);
#269=ADVANCED_FACE('',(#23),#255,.T.);
#270=ADVANCED_FACE('',(#24),#256,.T.);
#271=ADVANCED_FACE('',(#25),#257,.T.);
#272=ADVANCED_FACE('',(#26),#258,.T.);
#273=ADVANCED_FACE('',(#27),#259,.T.);
#274=ADVANCED_FACE('',(#28),#260,.T.);
#275=ADVANCED_FACE('',(#29),#261,.T.);
#276=ADVANCED_FACE('',(#30),#262,.T.);
#277=ADVANCED_FACE('',(#31),#263,.T.);
#278=ADVANCED_FACE('',(#32),#264,.F.);
#279=CLOSED_SHELL('',(#265,#266,#267,#268,#269,#270,#271,#272,#273,#274,
#275,#276,#277,#278));
#280=DERIVED_UNIT_ELEMENT(#282,1.);
#281=DERIVED_UNIT_ELEMENT(#463,3.);
#282=(
MASS_UNIT()
NAMED_UNIT(*)
SI_UNIT(.KILO.,.GRAM.)
);
#283=DERIVED_UNIT((#280,#281));
#284=MEASURE_REPRESENTATION_ITEM('density measure',
POSITIVE_RATIO_MEASURE(7850.),#283);
#285=PROPERTY_DEFINITION_REPRESENTATION(#290,#287);
#286=PROPERTY_DEFINITION_REPRESENTATION(#291,#288);
#287=REPRESENTATION('material name',(#289),#460);
#288=REPRESENTATION('density',(#284),#460);
#289=DESCRIPTIVE_REPRESENTATION_ITEM('Steel','Steel');
#290=PROPERTY_DEFINITION('material property','material name',#475);
#291=PROPERTY_DEFINITION('material property','density of part',#475);
#292=AXIS2_PLACEMENT_3D('placement',#379,#309,#310);
#293=AXIS2_PLACEMENT_3D('placement',#380,#311,#312);
#294=AXIS2_PLACEMENT_3D('',#381,#313,#314);
#295=AXIS2_PLACEMENT_3D('',#390,#319,#320);
#296=AXIS2_PLACEMENT_3D('',#396,#324,#325);
#297=AXIS2_PLACEMENT_3D('',#402,#329,#330);
#298=AXIS2_PLACEMENT_3D('',#411,#335,#336);
#299=AXIS2_PLACEMENT_3D('',#420,#341,#342);
#300=AXIS2_PLACEMENT_3D('',#426,#346,#347);
#301=AXIS2_PLACEMENT_3D('',#429,#350,#351);
#302=AXIS2_PLACEMENT_3D('',#435,#355,#356);
#303=AXIS2_PLACEMENT_3D('',#441,#360,#361);
#304=AXIS2_PLACEMENT_3D('',#444,#364,#365);
#305=AXIS2_PLACEMENT_3D('',#450,#369,#370);
#306=AXIS2_PLACEMENT_3D('',#453,#373,#374);
#307=AXIS2_PLACEMENT_3D('',#454,#375,#376);
#308=AXIS2_PLACEMENT_3D('',#455,#377,#378);
#309=DIRECTION('axis',(0.,0.,1.));
#310=DIRECTION('refdir',(1.,0.,0.));
#311=DIRECTION('axis',(0.,0.,1.));
#312=DIRECTION('refdir',(1.,0.,0.));
#313=DIRECTION('center_axis',(0.998752338877845,0.,0.0499376169438923));
#314=DIRECTION('ref_axis',(0.0499376169438923,0.,-0.998752338877845));
#315=DIRECTION('',(-0.0499376169438923,0.,0.998752338877845));
#316=DIRECTION('',(0.,1.,0.));
#317=DIRECTION('',(0.0499376169438923,0.,-0.998752338877845));
#318=DIRECTION('',(0.,1.,0.));
#319=DIRECTION('center_axis',(0.,0.,-1.));
#320=DIRECTION('ref_axis',(-1.,0.,0.));
#321=DIRECTION('',(1.,0.,0.));
#322=DIRECTION('',(0.,-1.,0.));
#323=DIRECTION('',(-1.,0.,0.));
#324=DIRECTION('center_axis',(1.,0.,0.));
#325=DIRECTION('ref_axis',(0.,0.,-1.));
#326=DIRECTION('',(0.,0.,-1.));
#327=DIRECTION('',(0.,1.,0.));
#328=DIRECTION('',(0.,0.,-1.));
#329=DIRECTION('center_axis',(-1.,0.,0.));
#330=DIRECTION('ref_axis',(0.,0.,1.));
#331=DIRECTION('',(0.,1.,0.));
#332=DIRECTION('',(0.,0.,1.));
#333=DIRECTION('',(0.,1.,0.));
#334=DIRECTION('',(0.,0.,-1.));
#335=DIRECTION('center_axis',(1.,0.,0.));
#336=DIRECTION('ref_axis',(0.,0.,-1.));
#337=DIRECTION('',(0.,0.,1.));
#338=DIRECTION('',(0.,1.,0.));
#339=DIRECTION('',(0.,0.,-1.));
#340=DIRECTION('',(0.,1.,0.));
#341=DIRECTION('center_axis',(0.,0.,1.));
#342=DIRECTION('ref_axis',(1.,0.,0.));
#343=DIRECTION('',(-1.,0.,0.));
#344=DIRECTION('',(1.,0.,0.));
#345=DIRECTION('',(0.,1.,0.));
#346=DIRECTION('center_axis',(0.,0.,-1.));
#347=DIRECTION('ref_axis',(-1.,0.,0.));
#348=DIRECTION('',(1.,0.,0.));
#349=DIRECTION('',(-1.,0.,0.));
#350=DIRECTION('center_axis',(0.,0.,1.));
#351=DIRECTION('ref_axis',(1.,0.,0.));
#352=DIRECTION('',(1.,0.,0.));
#353=DIRECTION('',(1.,0.,0.));
#354=DIRECTION('',(0.,1.,0.));
#355=DIRECTION('center_axis',(-1.,0.,0.));
#356=DIRECTION('ref_axis',(0.,0.,1.));
#357=DIRECTION('',(0.,0.,1.));
#358=DIRECTION('',(0.,0.,1.));
#359=DIRECTION('',(0.,1.,0.));
#360=DIRECTION('center_axis',(0.,0.,1.));
#361=DIRECTION('ref_axis',(1.,0.,0.));
#362=DIRECTION('',(1.,0.,0.));
#363=DIRECTION('',(1.,0.,0.));
#364=DIRECTION('center_axis',(0.,0.,-1.));
#365=DIRECTION('ref_axis',(-1.,0.,0.));
#366=DIRECTION('',(-1.,0.,0.));
#367=DIRECTION('',(0.,1.,0.));
#368=DIRECTION('',(-1.,0.,0.));
#369=DIRECTION('center_axis',(-0.998752338877845,0.,0.0499376169438922));
#370=DIRECTION('ref_axis',(0.0499376169438922,0.,0.998752338877845));
#371=DIRECTION('',(0.0499376169438922,0.,0.998752338877845));
#372=DIRECTION('',(0.0499376169438922,0.,0.998752338877845));
#373=DIRECTION('center_axis',(0.,1.,0.));
#374=DIRECTION('ref_axis',(0.,0.,1.));
#375=DIRECTION('center_axis',(0.,1.,0.));
#376=DIRECTION('ref_axis',(1.,0.,0.));
#377=DIRECTION('',(0.,0.,1.));
#378=DIRECTION('',(1.,0.,0.));
#379=CARTESIAN_POINT('',(0.,0.,0.));
#380=CARTESIAN_POINT('',(0.,0.,0.));
#381=CARTESIAN_POINT('Origin',(6.,0.,6.));
#382=CARTESIAN_POINT('',(6.2,0.,2.));
#383=CARTESIAN_POINT('',(6.,0.,6.));
#384=CARTESIAN_POINT('',(6.2,0.,2.));
#385=CARTESIAN_POINT('',(6.2,10.,2.));
#386=CARTESIAN_POINT('',(6.2,0.,2.));
#387=CARTESIAN_POINT('',(6.,10.,6.));
#388=CARTESIAN_POINT('',(6.2,10.,2.));
#389=CARTESIAN_POINT('',(6.,0.,6.));
#390=CARTESIAN_POINT('Origin',(6.2,0.,2.));
#391=CARTESIAN_POINT('',(6.,0.,2.));
#392=CARTESIAN_POINT('',(6.,0.,2.));
#393=CARTESIAN_POINT('',(6.,10.,2.));
#394=CARTESIAN_POINT('',(6.,0.,2.));
#395=CARTESIAN_POINT('',(6.,10.,2.));
#396=CARTESIAN_POINT('Origin',(6.,0.,6.));
#397=CARTESIAN_POINT('',(6.,0.,0.));
#398=CARTESIAN_POINT('',(6.,0.,6.));
#399=CARTESIAN_POINT('',(6.,10.,0.));
#400=CARTESIAN_POINT('',(6.,0.,0.));
#401=CARTESIAN_POINT('',(6.,10.,6.));
#402=CARTESIAN_POINT('Origin',(0.,0.,0.));
#403=CARTESIAN_POINT('',(0.,0.,2.));
#404=CARTESIAN_POINT('',(0.,10.,2.));
#405=CARTESIAN_POINT('',(0.,0.,2.));
#406=CARTESIAN_POINT('',(0.,10.,0.));
#407=CARTESIAN_POINT('',(0.,10.,6.));
#408=CARTESIAN_POINT('',(0.,0.,0.));
#409=CARTESIAN_POINT('',(0.,0.,0.));
#410=CARTESIAN_POINT('',(0.,0.,6.));
#411=CARTESIAN_POINT('Origin',(1.,0.,6.));
#412=CARTESIAN_POINT('',(1.,0.,2.));
#413=CARTESIAN_POINT('',(1.,0.,6.));
#414=CARTESIAN_POINT('',(1.,0.,2.));
#415=CARTESIAN_POINT('',(1.,10.,2.));
#416=CARTESIAN_POINT('',(1.,0.,2.));
#417=CARTESIAN_POINT('',(1.,10.,6.));
#418=CARTESIAN_POINT('',(1.,10.,2.));
#419=CARTESIAN_POINT('',(1.,0.,6.));
#420=CARTESIAN_POINT('Origin',(0.,0.,6.));
#421=CARTESIAN_POINT('',(0.,0.,6.));
#422=CARTESIAN_POINT('',(1.,0.,6.));
#423=CARTESIAN_POINT('',(0.,10.,6.));
#424=CARTESIAN_POINT('',(1.,10.,6.));
#425=CARTESIAN_POINT('',(0.,0.,6.));
#426=CARTESIAN_POINT('Origin',(6.,0.,0.));
#427=CARTESIAN_POINT('',(0.,0.,0.));
#428=CARTESIAN_POINT('',(0.,10.,0.));
#429=CARTESIAN_POINT('Origin',(5.,0.,6.));
#430=CARTESIAN_POINT('',(5.,0.,6.));
#431=CARTESIAN_POINT('',(5.,0.,6.));
#432=CARTESIAN_POINT('',(5.,10.,6.));
#433=CARTESIAN_POINT('',(5.,10.,6.));
#434=CARTESIAN_POINT('',(5.,0.,6.));
#435=CARTESIAN_POINT('Origin',(5.,0.,2.));
#436=CARTESIAN_POINT('',(5.,0.,2.));
#437=CARTESIAN_POINT('',(5.,0.,2.));
#438=CARTESIAN_POINT('',(5.,10.,2.));
#439=CARTESIAN_POINT('',(5.,10.,2.));
#440=CARTESIAN_POINT('',(5.,0.,2.));
#441=CARTESIAN_POINT('Origin',(1.,0.,2.));
#442=CARTESIAN_POINT('',(0.,0.,2.));
#443=CARTESIAN_POINT('',(0.,10.,2.));
#444=CARTESIAN_POINT('Origin',(0.,0.,2.));
#445=CARTESIAN_POINT('',(-0.2,0.,2.));
#446=CARTESIAN_POINT('',(0.,0.,2.));
#447=CARTESIAN_POINT('',(-0.2,10.,2.));
#448=CARTESIAN_POINT('',(-0.2,0.,2.));
#449=CARTESIAN_POINT('',(0.,10.,2.));
#450=CARTESIAN_POINT('Origin',(-0.2,0.,2.));
#451=CARTESIAN_POINT('',(-0.2,0.,2.));
#452=CARTESIAN_POINT('',(-0.2,10.,2.));
#453=CARTESIAN_POINT('Origin',(-0.1,10.,4.));
#454=CARTESIAN_POINT('Origin',(-0.1,0.,4.));
#455=CARTESIAN_POINT('',(0.,0.,0.));
#456=UNCERTAINTY_MEASURE_WITH_UNIT(LENGTH_MEASURE(0.01),#462,
'DISTANCE_ACCURACY_VALUE',
'Maximum model space distance between geometric entities at asserted c
onnectivities');
#457=UNCERTAINTY_MEASURE_WITH_UNIT(LENGTH_MEASURE(0.01),#462,
'DISTANCE_ACCURACY_VALUE',
'Maximum model space distance between geometric entities at asserted c
onnectivities');
#458=UNCERTAINTY_MEASURE_WITH_UNIT(LENGTH_MEASURE(0.01),#462,
'DISTANCE_ACCURACY_VALUE',
'Maximum model space distance between geometric entities at asserted c
onnectivities');
#459=(
GEOMETRIC_REPRESENTATION_CONTEXT(3)
GLOBAL_UNCERTAINTY_ASSIGNED_CONTEXT((#456))
GLOBAL_UNIT_ASSIGNED_CONTEXT((#462,#464,#465))
REPRESENTATION_CONTEXT('','3D')
);
#460=(
GEOMETRIC_REPRESENTATION_CONTEXT(3)
GLOBAL_UNCERTAINTY_ASSIGNED_CONTEXT((#457))
GLOBAL_UNIT_ASSIGNED_CONTEXT((#462,#464,#465))
REPRESENTATION_CONTEXT('','3D')
);
#461=(
GEOMETRIC_REPRESENTATION_CONTEXT(3)
GLOBAL_UNCERTAINTY_ASSIGNED_CONTEXT((#458))
GLOBAL_UNIT_ASSIGNED_CONTEXT((#462,#464,#465))
REPRESENTATION_CONTEXT('','3D')
);
#462=(
LENGTH_UNIT()
NAMED_UNIT(*)
SI_UNIT(.MILLI.,.METRE.)
);
#463=(
LENGTH_UNIT()
NAMED_UNIT(*)
SI_UNIT($,.METRE.)
);
#464=(
NAMED_UNIT(*)
PLANE_ANGLE_UNIT()
SI_UNIT($,.RADIAN.)
);
#465=(
NAMED_UNIT(*)
SI_UNIT($,.STERADIAN.)
SOLID_ANGLE_UNIT()
);
#466=SHAPE_DEFINITION_REPRESENTATION(#468,#471);
#467=SHAPE_DEFINITION_REPRESENTATION(#469,#472);
#468=PRODUCT_DEFINITION_SHAPE('',$,#474);
#469=PRODUCT_DEFINITION_SHAPE('',$,#475);
#470=PRODUCT_DEFINITION_SHAPE($,$,#16);
#471=SHAPE_REPRESENTATION('',(#292,#308),#459);
#472=SHAPE_REPRESENTATION('',(#293),#460);
#473=PRODUCT_DEFINITION_CONTEXT('part definition',#481,'design');
#474=PRODUCT_DEFINITION('2020 Cable Sleeve','2020 Cable Sleeve v3',#476,
#473);
#475=PRODUCT_DEFINITION('2020 Cable Cover','2020 Cable Cover',#477,#473);
#476=PRODUCT_DEFINITION_FORMATION('',$,#483);
#477=PRODUCT_DEFINITION_FORMATION('',$,#484);
#478=PRODUCT_RELATED_PRODUCT_CATEGORY('2020 Cable Sleeve v3',
'2020 Cable Sleeve v3',(#483));
#479=PRODUCT_RELATED_PRODUCT_CATEGORY('2020 Cable Cover',
'2020 Cable Cover',(#484));
#480=APPLICATION_PROTOCOL_DEFINITION('international standard',
'automotive_design',2009,#481);
#481=APPLICATION_CONTEXT(
'Core Data for Automotive Mechanical Design Process');
#482=PRODUCT_CONTEXT('part definition',#481,'mechanical');
#483=PRODUCT('2020 Cable Sleeve','2020 Cable Sleeve v3',$,(#482));
#484=PRODUCT('2020 Cable Cover','2020 Cable Cover',$,(#482));
#485=PRESENTATION_STYLE_ASSIGNMENT((#486));
#486=SURFACE_STYLE_USAGE(.BOTH.,#487);
#487=SURFACE_SIDE_STYLE('',(#488));
#488=SURFACE_STYLE_FILL_AREA(#489);
#489=FILL_AREA_STYLE('Steel - Satin',(#490));
#490=FILL_AREA_STYLE_COLOUR('Steel - Satin',#491);
#491=COLOUR_RGB('Steel - Satin',0.627450980392157,0.627450980392157,0.627450980392157);
ENDSEC;
END-ISO-10303-21;
